David Cook Always Be My Baby Guitar Tabs | Freebies and Product Samples

David Cook Always Be My Baby Guitar Tabs

this is the tab for guitar 2..

intro:
|-----3------3------ |
|--3----3-------3---|
|0--------0---------|
|------------------- |
|------------------- |
|------------------- | repeat this 2x for the intro

verses and chorus:
|-----3------3-----------3-----3--------------3-------3--------|
|--3----3--------3----3----3--------3-----3------3--------3----|
|0--------0---------2-------------------------------------------|
|----------------------------------------------------------------|
|---------------------------------------3------------------------|
|----------------------------------------------------------------|

|-----3------3-------------3------3--------|
|--3------3------3------3-----3-------3---|
|-------------------------------------------|
|---------------------0---------------------|
|0------------------------------------------|
|-------------------------------------------|

Listen to the music for timing

1 comments:

Nicely said...

this is one of my favorite songs!